ISO-10303-21;
HEADER;
FILE_DESCRIPTION( ( 'STEP AP214' ), '1' );
FILE_NAME( 'p:/temp/worker_22/temp/exporttempdir_3772_422_A4snZ/format_0/AGRU_11050007507_Elbow 45\X2\00B0\X0\_PPR grey_75 - MOP 16 bar (architecture400).stp', '2022-03-09T12:13:51', ( 'License CC BY-ND 4.0' ), ( 'CADENAS' ), ' ', 'PARTsolutions', ' ' );
FILE_SCHEMA( ( 'AUTOMOTIVE_DESIGN { 1 0 10303 214 1 1 1 1 }' ) );
ENDSEC;
DATA;
#1 = MECHANICAL_DESIGN_GEOMETRIC_PRESENTATION_REPRESENTATION( ' ', ( #10, #11, #12, #13, #14, #15, #16, #17, #18, #19, #20, #21 ), #6 );
#2 = PRODUCT_DEFINITION_CONTEXT( '', #22, 'design' );
#3 = APPLICATION_PROTOCOL_DEFINITION( 'international standard', 'automotive_design', 2001, #22 );
#4 = PRODUCT_CATEGORY_RELATIONSHIP( 'NONE', 'NONE', #23, #24 );
#5 = SHAPE_DEFINITION_REPRESENTATION( #25, #26 );
#6 =  ( GEOMETRIC_REPRESENTATION_CONTEXT( 3 )GLOBAL_UNCERTAINTY_ASSIGNED_CONTEXT( ( #29 ) )GLOBAL_UNIT_ASSIGNED_CONTEXT( ( #31, #32, #33 ) )REPRESENTATION_CONTEXT( 'NONE', 'WORKSPACE' ) );
#10 = STYLED_ITEM( '', ( #35 ), #36 );
#11 = STYLED_ITEM( '', ( #37 ), #38 );
#12 = STYLED_ITEM( '', ( #39 ), #40 );
#13 = STYLED_ITEM( '', ( #41 ), #42 );
#14 = STYLED_ITEM( '', ( #43 ), #44 );
#15 = STYLED_ITEM( '', ( #45 ), #46 );
#16 = STYLED_ITEM( '', ( #47 ), #48 );
#17 = STYLED_ITEM( '', ( #49 ), #50 );
#18 = STYLED_ITEM( '', ( #51 ), #52 );
#19 = STYLED_ITEM( '', ( #53 ), #54 );
#20 = STYLED_ITEM( '', ( #55 ), #56 );
#21 = STYLED_ITEM( '', ( #57 ), #58 );
#22 = APPLICATION_CONTEXT( 'core data for automotive mechanical design processes' );
#23 = PRODUCT_CATEGORY( 'part', 'NONE' );
#24 = PRODUCT_RELATED_PRODUCT_CATEGORY( 'detail', ' ', ( #59 ) );
#25 = PRODUCT_DEFINITION_SHAPE( 'NONE', 'NONE', #60 );
#26 = ADVANCED_BREP_SHAPE_REPRESENTATION( '_AGRU_11050007507_Elbow 45\X2\00B0\X0\_PPR grey_75 - MOP 16 bar (architecture400)', ( #61, #62 ), #6 );
#29 = UNCERTAINTY_MEASURE_WITH_UNIT( LENGTH_MEASURE( 0.00100000000000000 ), #31, '', '' );
#31 =  ( CONVERSION_BASED_UNIT( 'MILLIMETRE', #65 )LENGTH_UNIT(  )NAMED_UNIT( #68 ) );
#32 =  ( NAMED_UNIT( #70 )PLANE_ANGLE_UNIT(  )SI_UNIT( $, .RADIAN. ) );
#33 =  ( NAMED_UNIT( #70 )SI_UNIT( $, .STERADIAN. )SOLID_ANGLE_UNIT(  ) );
#35 = PRESENTATION_STYLE_ASSIGNMENT( ( #76 ) );
#36 = ADVANCED_FACE( '', ( #77, #78 ), #79, .F. );
#37 = PRESENTATION_STYLE_ASSIGNMENT( ( #80 ) );
#38 = ADVANCED_FACE( '', ( #81, #82 ), #83, .T. );
#39 = PRESENTATION_STYLE_ASSIGNMENT( ( #84 ) );
#40 = ADVANCED_FACE( '', ( #85, #86 ), #87, .F. );
#41 = PRESENTATION_STYLE_ASSIGNMENT( ( #88 ) );
#42 = ADVANCED_FACE( '', ( #89, #90 ), #91, .T. );
#43 = PRESENTATION_STYLE_ASSIGNMENT( ( #92 ) );
#44 = ADVANCED_FACE( '', ( #93, #94 ), #95, .F. );
#45 = PRESENTATION_STYLE_ASSIGNMENT( ( #96 ) );
#46 = ADVANCED_FACE( '', ( #97, #98 ), #99, .T. );
#47 = PRESENTATION_STYLE_ASSIGNMENT( ( #100 ) );
#48 = ADVANCED_FACE( '', ( #101, #102 ), #103, .F. );
#49 = PRESENTATION_STYLE_ASSIGNMENT( ( #104 ) );
#50 = ADVANCED_FACE( '', ( #105, #106 ), #107, .T. );
#51 = PRESENTATION_STYLE_ASSIGNMENT( ( #108 ) );
#52 = ADVANCED_FACE( '', ( #109 ), #110, .T. );
#53 = PRESENTATION_STYLE_ASSIGNMENT( ( #111 ) );
#54 = ADVANCED_FACE( '', ( #112, #113 ), #114, .F. );
#55 = PRESENTATION_STYLE_ASSIGNMENT( ( #115 ) );
#56 = ADVANCED_FACE( '', ( #116, #117 ), #118, .F. );
#57 = PRESENTATION_STYLE_ASSIGNMENT( ( #119 ) );
#58 = ADVANCED_FACE( '', ( #120 ), #121, .F. );
#59 = PRODUCT( '_AGRU_11050007507_Elbow 45\X2\00B0\X0\_PPR grey_75 - MOP 16 bar (architecture400)', '_AGRU_11050007507_Elbow 45\X2\00B0\X0\_PPR grey_75 - MOP 16 bar (architecture400)', 'PART-_AGRU_11050007507_Elbow 45\X2\00B0\X0\_PPR grey_75 - MOP 16 bar (architecture400)-DESC', ( #122 ) );
#60 = PRODUCT_DEFINITION( 'NONE', 'NONE', #123, #2 );
#61 = MANIFOLD_SOLID_BREP( '_AGRU_11050007507_Elbow 45\X2\00B0\X0\_PPR grey_75 - MOP 16 bar (architecture400)', #124 );
#62 = AXIS2_PLACEMENT_3D( '', #125, #126, #127 );
#65 = LENGTH_MEASURE_WITH_UNIT( LENGTH_MEASURE( 1.00000000000000 ), #128 );
#68 = DIMENSIONAL_EXPONENTS( 1.00000000000000, 0.000000000000000, 0.000000000000000, 0.000000000000000, 0.000000000000000, 0.000000000000000, 0.000000000000000 );
#70 = DIMENSIONAL_EXPONENTS( 0.000000000000000, 0.000000000000000, 0.000000000000000, 0.000000000000000, 0.000000000000000, 0.000000000000000, 0.000000000000000 );
#76 = SURFACE_STYLE_USAGE( .BOTH., #129 );
#77 = FACE_BOUND( '', #130, .T. );
#78 = FACE_OUTER_BOUND( '', #131, .T. );
#79 = PLANE( '', #132 );
#80 = SURFACE_STYLE_USAGE( .BOTH., #133 );
#81 = FACE_OUTER_BOUND( '', #134, .T. );
#82 = FACE_OUTER_BOUND( '', #135, .T. );
#83 = CYLINDRICAL_SURFACE( '', #136, 46.0000000000000 );
#84 = SURFACE_STYLE_USAGE( .BOTH., #137 );
#85 = FACE_OUTER_BOUND( '', #138, .T. );
#86 = FACE_OUTER_BOUND( '', #139, .T. );
#87 = CYLINDRICAL_SURFACE( '', #140, 34.6666666667000 );
#88 = SURFACE_STYLE_USAGE( .BOTH., #141 );
#89 = FACE_OUTER_BOUND( '', #142, .T. );
#90 = FACE_OUTER_BOUND( '', #143, .T. );
#91 = CYLINDRICAL_SURFACE( '', #144, 46.0000000000000 );
#92 = SURFACE_STYLE_USAGE( .BOTH., #145 );
#93 = FACE_OUTER_BOUND( '', #146, .T. );
#94 = FACE_OUTER_BOUND( '', #147, .T. );
#95 = CYLINDRICAL_SURFACE( '', #148, 34.6666666667000 );
#96 = SURFACE_STYLE_USAGE( .BOTH., #149 );
#97 = FACE_BOUND( '', #150, .T. );
#98 = FACE_OUTER_BOUND( '', #151, .T. );
#99 = PLANE( '', #152 );
#100 = SURFACE_STYLE_USAGE( .BOTH., #153 );
#101 = FACE_OUTER_BOUND( '', #154, .T. );
#102 = FACE_OUTER_BOUND( '', #155, .T. );
#103 = CYLINDRICAL_SURFACE( '', #156, 37.5000000000000 );
#104 = SURFACE_STYLE_USAGE( .BOTH., #157 );
#105 = FACE_OUTER_BOUND( '', #158, .T. );
#106 = FACE_BOUND( '', #159, .T. );
#107 = PLANE( '', #160 );
#108 = SURFACE_STYLE_USAGE( .BOTH., #161 );
#109 = FACE_OUTER_BOUND( '', #162, .T. );
#110 = SPHERICAL_SURFACE( '', #163, 46.0000000000000 );
#111 = SURFACE_STYLE_USAGE( .BOTH., #164 );
#112 = FACE_BOUND( '', #165, .T. );
#113 = FACE_OUTER_BOUND( '', #166, .T. );
#114 = PLANE( '', #167 );
#115 = SURFACE_STYLE_USAGE( .BOTH., #168 );
#116 = FACE_OUTER_BOUND( '', #169, .T. );
#117 = FACE_OUTER_BOUND( '', #170, .T. );
#118 = CYLINDRICAL_SURFACE( '', #171, 37.5000000000000 );
#119 = SURFACE_STYLE_USAGE( .BOTH., #172 );
#120 = FACE_OUTER_BOUND( '', #173, .T. );
#121 = SPHERICAL_SURFACE( '', #174, 34.6666666667000 );
#122 = PRODUCT_CONTEXT( '', #22, 'mechanical' );
#123 = PRODUCT_DEFINITION_FORMATION_WITH_SPECIFIED_SOURCE( ' ', 'NONE', #59, .NOT_KNOWN. );
#124 = CLOSED_SHELL( '', ( #54, #38, #52, #42, #44, #46, #48, #36, #56, #50, #40, #58 ) );
#125 = CARTESIAN_POINT( '', ( 0.000000000000000, 0.000000000000000, 0.000000000000000 ) );
#126 = DIRECTION( '', ( 0.000000000000000, 0.000000000000000, 1.00000000000000 ) );
#127 = DIRECTION( '', ( 1.00000000000000, 0.000000000000000, 0.000000000000000 ) );
#128 =  ( LENGTH_UNIT(  )NAMED_UNIT( #68 )SI_UNIT( .MILLI., .METRE. ) );
#129 = SURFACE_SIDE_STYLE( '', ( #176 ) );
#130 = EDGE_LOOP( '', ( #177 ) );
#131 = EDGE_LOOP( '', ( #178 ) );
#132 = AXIS2_PLACEMENT_3D( '', #179, #180, #181 );
#133 = SURFACE_SIDE_STYLE( '', ( #182 ) );
#134 = EDGE_LOOP( '', ( #183 ) );
#135 = EDGE_LOOP( '', ( #184, #185 ) );
#136 = AXIS2_PLACEMENT_3D( '', #186, #187, #188 );
#137 = SURFACE_SIDE_STYLE( '', ( #189 ) );
#138 = EDGE_LOOP( '', ( #190 ) );
#139 = EDGE_LOOP( '', ( #191, #192 ) );
#140 = AXIS2_PLACEMENT_3D( '', #193, #194, #195 );
#141 = SURFACE_SIDE_STYLE( '', ( #196 ) );
#142 = EDGE_LOOP( '', ( #197 ) );
#143 = EDGE_LOOP( '', ( #198, #199 ) );
#144 = AXIS2_PLACEMENT_3D( '', #200, #201, #202 );
#145 = SURFACE_SIDE_STYLE( '', ( #203 ) );
#146 = EDGE_LOOP( '', ( #204, #205 ) );
#147 = EDGE_LOOP( '', ( #206 ) );
#148 = AXIS2_PLACEMENT_3D( '', #207, #208, #209 );
#149 = SURFACE_SIDE_STYLE( '', ( #210 ) );
#150 = EDGE_LOOP( '', ( #211 ) );
#151 = EDGE_LOOP( '', ( #212 ) );
#152 = AXIS2_PLACEMENT_3D( '', #213, #214, #215 );
#153 = SURFACE_SIDE_STYLE( '', ( #216 ) );
#154 = EDGE_LOOP( '', ( #217 ) );
#155 = EDGE_LOOP( '', ( #218 ) );
#156 = AXIS2_PLACEMENT_3D( '', #219, #220, #221 );
#157 = SURFACE_SIDE_STYLE( '', ( #222 ) );
#158 = EDGE_LOOP( '', ( #223 ) );
#159 = EDGE_LOOP( '', ( #224 ) );
#160 = AXIS2_PLACEMENT_3D( '', #225, #226, #227 );
#161 = SURFACE_SIDE_STYLE( '', ( #228 ) );
#162 = EDGE_LOOP( '', ( #229, #230 ) );
#163 = AXIS2_PLACEMENT_3D( '', #231, #232, #233 );
#164 = SURFACE_SIDE_STYLE( '', ( #234 ) );
#165 = EDGE_LOOP( '', ( #235 ) );
#166 = EDGE_LOOP( '', ( #236 ) );
#167 = AXIS2_PLACEMENT_3D( '', #237, #238, #239 );
#168 = SURFACE_SIDE_STYLE( '', ( #240 ) );
#169 = EDGE_LOOP( '', ( #241 ) );
#170 = EDGE_LOOP( '', ( #242 ) );
#171 = AXIS2_PLACEMENT_3D( '', #243, #244, #245 );
#172 = SURFACE_SIDE_STYLE( '', ( #246 ) );
#173 = EDGE_LOOP( '', ( #247, #248 ) );
#174 = AXIS2_PLACEMENT_3D( '', #249, #250, #251 );
#176 = SURFACE_STYLE_FILL_AREA( #252 );
#177 = ORIENTED_EDGE( '', *, *, #253, .F. );
#178 = ORIENTED_EDGE( '', *, *, #254, .T. );
#179 = CARTESIAN_POINT( '', ( 4.94974746830584, 0.000000000000000, 90.0035713374682 ) );
#180 = DIRECTION( '', ( -0.707106781186548, 0.000000000000000, -0.707106781186548 ) );
#181 = DIRECTION( '', ( -0.707106781186547, 0.000000000000000, 0.707106781186547 ) );
#182 = SURFACE_STYLE_FILL_AREA( #255 );
#183 = ORIENTED_EDGE( '', *, *, #256, .T. );
#184 = ORIENTED_EDGE( '', *, *, #257, .F. );
#185 = ORIENTED_EDGE( '', *, *, #258, .F. );
#186 = CARTESIAN_POINT( '', ( 0.000000000000000, 0.000000000000000, 20.0000000000000 ) );
#187 = DIRECTION( '', ( 0.000000000000000, -0.000000000000000, 1.00000000000000 ) );
#188 = DIRECTION( '', ( -1.00000000000000, 0.000000000000000, 0.000000000000000 ) );
#189 = SURFACE_STYLE_FILL_AREA( #259 );
#190 = ORIENTED_EDGE( '', *, *, #260, .T. );
#191 = ORIENTED_EDGE( '', *, *, #261, .F. );
#192 = ORIENTED_EDGE( '', *, *, #262, .F. );
#193 = CARTESIAN_POINT( '', ( 38.1837661840736, 0.000000000000000, 58.1837661840736 ) );
#194 = DIRECTION( '', ( -0.707106781186548, 0.000000000000000, -0.707106781186547 ) );
#195 = DIRECTION( '', ( 0.707106781186547, 0.000000000000000, -0.707106781186548 ) );
#196 = SURFACE_STYLE_FILL_AREA( #263 );
#197 = ORIENTED_EDGE( '', *, *, #254, .F. );
#198 = ORIENTED_EDGE( '', *, *, #264, .T. );
#199 = ORIENTED_EDGE( '', *, *, #257, .T. );
#200 = CARTESIAN_POINT( '', ( 37.4766594028870, 0.000000000000000, 57.4766594028870 ) );
#201 = DIRECTION( '', ( -0.707106781186548, 0.000000000000000, -0.707106781186548 ) );
#202 = DIRECTION( '', ( 0.707106781186548, 0.000000000000000, -0.707106781186548 ) );
#203 = SURFACE_STYLE_FILL_AREA( #265 );
#204 = ORIENTED_EDGE( '', *, *, #261, .T. );
#205 = ORIENTED_EDGE( '', *, *, #266, .T. );
#206 = ORIENTED_EDGE( '', *, *, #267, .F. );
#207 = CARTESIAN_POINT( '', ( 0.000000000000000, 0.000000000000000, 54.6666666666667 ) );
#208 = DIRECTION( '', ( -0.000000000000000, 0.000000000000000, -1.00000000000000 ) );
#209 = DIRECTION( '', ( 1.00000000000000, 0.000000000000000, 0.000000000000000 ) );
#210 = SURFACE_STYLE_FILL_AREA( #268 );
#211 = ORIENTED_EDGE( '', *, *, #267, .T. );
#212 = ORIENTED_EDGE( '', *, *, #269, .F. );
#213 = CARTESIAN_POINT( '', ( -37.5000000000000, 0.000000000000000, 0.000000000000000 ) );
#214 = DIRECTION( '', ( 0.000000000000000, 0.000000000000000, -1.00000000000000 ) );
#215 = DIRECTION( '', ( -1.00000000000000, 0.000000000000000, 0.000000000000000 ) );
#216 = SURFACE_STYLE_FILL_AREA( #270 );
#217 = ORIENTED_EDGE( '', *, *, #269, .T. );
#218 = ORIENTED_EDGE( '', *, *, #271, .T. );
#219 = CARTESIAN_POINT( '', ( 0.000000000000000, 0.000000000000000, 54.6666666666667 ) );
#220 = DIRECTION( '', ( -0.000000000000000, 0.000000000000000, -1.00000000000000 ) );
#221 = DIRECTION( '', ( 1.00000000000000, 0.000000000000000, 0.000000000000000 ) );
#222 = SURFACE_STYLE_FILL_AREA( #272 );
#223 = ORIENTED_EDGE( '', *, *, #273, .T. );
#224 = ORIENTED_EDGE( '', *, *, #260, .F. );
#225 = CARTESIAN_POINT( '', ( -10.3708994574027, 0.000000000000000, 58.6551707048646 ) );
#226 = DIRECTION( '', ( 0.707106781186548, -0.000000000000000, 0.707106781186547 ) );
#227 = DIRECTION( '', ( 0.707106781186547, 0.000000000000000, -0.707106781186548 ) );
#228 = SURFACE_STYLE_FILL_AREA( #274 );
#229 = ORIENTED_EDGE( '', *, *, #258, .T. );
#230 = ORIENTED_EDGE( '', *, *, #264, .F. );
#231 = CARTESIAN_POINT( '', ( 3.46944695195361E-15, 0.000000000000000, 20.0000000000000 ) );
#232 = DIRECTION( '', ( 0.000000000000000, 0.000000000000000, 1.00000000000000 ) );
#233 = DIRECTION( '', ( -1.00000000000000, 0.000000000000000, 0.000000000000000 ) );
#234 = SURFACE_STYLE_FILL_AREA( #275 );
#235 = ORIENTED_EDGE( '', *, *, #271, .F. );
#236 = ORIENTED_EDGE( '', *, *, #256, .F. );
#237 = CARTESIAN_POINT( '', ( 0.000000000000000, 0.000000000000000, -33.0000000000000 ) );
#238 = DIRECTION( '', ( 0.000000000000000, 0.000000000000000, 1.00000000000000 ) );
#239 = DIRECTION( '', ( 1.00000000000000, 0.000000000000000, -0.000000000000000 ) );
#240 = SURFACE_STYLE_FILL_AREA( #276 );
#241 = ORIENTED_EDGE( '', *, *, #253, .T. );
#242 = ORIENTED_EDGE( '', *, *, #273, .F. );
#243 = CARTESIAN_POINT( '', ( 38.1837661840736, 0.000000000000000, 58.1837661840736 ) );
#244 = DIRECTION( '', ( -0.707106781186548, 0.000000000000000, -0.707106781186547 ) );
#245 = DIRECTION( '', ( 0.707106781186547, 0.000000000000000, -0.707106781186548 ) );
#246 = SURFACE_STYLE_FILL_AREA( #277 );
#247 = ORIENTED_EDGE( '', *, *, #266, .F. );
#248 = ORIENTED_EDGE( '', *, *, #262, .T. );
#249 = CARTESIAN_POINT( '', ( -6.93889390390723E-15, 0.000000000000000, 20.0000000000000 ) );
#250 = DIRECTION( '', ( 0.000000000000000, 0.000000000000000, 1.00000000000000 ) );
#251 = DIRECTION( '', ( 1.00000000000000, 0.000000000000000, 0.000000000000000 ) );
#252 = FILL_AREA_STYLE( '', ( #278 ) );
#253 = EDGE_CURVE( '', #279, #279, #280, .F. );
#254 = EDGE_CURVE( '', #281, #281, #282, .T. );
#255 = FILL_AREA_STYLE( '', ( #283 ) );
#256 = EDGE_CURVE( '', #284, #284, #285, .T. );
#257 = EDGE_CURVE( '', #286, #287, #288, .F. );
#258 = EDGE_CURVE( '', #287, #286, #289, .T. );
#259 = FILL_AREA_STYLE( '', ( #290 ) );
#260 = EDGE_CURVE( '', #291, #291, #292, .T. );
#261 = EDGE_CURVE( '', #293, #294, #295, .T. );
#262 = EDGE_CURVE( '', #294, #293, #296, .T. );
#263 = FILL_AREA_STYLE( '', ( #297 ) );
#264 = EDGE_CURVE( '', #287, #286, #298, .T. );
#265 = FILL_AREA_STYLE( '', ( #299 ) );
#266 = EDGE_CURVE( '', #294, #293, #300, .T. );
#267 = EDGE_CURVE( '', #301, #301, #302, .T. );
#268 = FILL_AREA_STYLE( '', ( #303 ) );
#269 = EDGE_CURVE( '', #304, #304, #305, .T. );
#270 = FILL_AREA_STYLE( '', ( #306 ) );
#271 = EDGE_CURVE( '', #307, #307, #308, .F. );
#272 = FILL_AREA_STYLE( '', ( #309 ) );
#273 = EDGE_CURVE( '', #310, #310, #311, .T. );
#274 = FILL_AREA_STYLE( '', ( #312 ) );
#275 = FILL_AREA_STYLE( '', ( #313 ) );
#276 = FILL_AREA_STYLE( '', ( #314 ) );
#277 = FILL_AREA_STYLE( '', ( #315 ) );
#278 = FILL_AREA_STYLE_COLOUR( '', #316 );
#279 = VERTEX_POINT( '', #317 );
#280 = CIRCLE( '', #318, 37.5000000000000 );
#281 = VERTEX_POINT( '', #319 );
#282 = CIRCLE( '', #320, 46.0000000000000 );
#283 = FILL_AREA_STYLE_COLOUR( '', #321 );
#284 = VERTEX_POINT( '', #322 );
#285 = CIRCLE( '', #323, 46.0000000000000 );
#286 = VERTEX_POINT( '', #324 );
#287 = VERTEX_POINT( '', #325 );
#288 = ELLIPSE( '', #326, 49.7900412135000, 46.0000000000000 );
#289 = CIRCLE( '', #327, 46.0000000000000 );
#290 = FILL_AREA_STYLE_COLOUR( '', #328 );
#291 = VERTEX_POINT( '', #329 );
#292 = CIRCLE( '', #330, 34.6666666667000 );
#293 = VERTEX_POINT( '', #331 );
#294 = VERTEX_POINT( '', #332 );
#295 = ELLIPSE( '', #333, 37.5229296101000, 34.6666666667000 );
#296 = CIRCLE( '', #334, 34.6666666667000 );
#297 = FILL_AREA_STYLE_COLOUR( '', #335 );
#298 = CIRCLE( '', #336, 46.0000000000000 );
#299 = FILL_AREA_STYLE_COLOUR( '', #337 );
#300 = CIRCLE( '', #338, 34.6666666667000 );
#301 = VERTEX_POINT( '', #339 );
#302 = CIRCLE( '', #340, 34.6666666667000 );
#303 = FILL_AREA_STYLE_COLOUR( '', #341 );
#304 = VERTEX_POINT( '', #342 );
#305 = CIRCLE( '', #343, 37.5000000000000 );
#306 = FILL_AREA_STYLE_COLOUR( '', #344 );
#307 = VERTEX_POINT( '', #345 );
#308 = CIRCLE( '', #346, 37.5000000000000 );
#309 = FILL_AREA_STYLE_COLOUR( '', #347 );
#310 = VERTEX_POINT( '', #348 );
#311 = CIRCLE( '', #349, 37.5000000000000 );
#312 = FILL_AREA_STYLE_COLOUR( '', #350 );
#313 = FILL_AREA_STYLE_COLOUR( '', #351 );
#314 = FILL_AREA_STYLE_COLOUR( '', #352 );
#315 = FILL_AREA_STYLE_COLOUR( '', #353 );
#316 = COLOUR_RGB( '', 0.713725507300000, 0.709803938900000, 0.650980413000000 );
#317 = CARTESIAN_POINT( '', ( 10.9601551083915, 0.000000000000000, 83.9931636973826 ) );
#318 = AXIS2_PLACEMENT_3D( '', #354, #355, #356 );
#319 = CARTESIAN_POINT( '', ( 70.0035713374682, 0.000000000000000, 24.9497474683058 ) );
#320 = AXIS2_PLACEMENT_3D( '', #357, #358, #359 );
#321 = COLOUR_RGB( '', 0.713725507300000, 0.709803938900000, 0.650980413000000 );
#322 = CARTESIAN_POINT( '', ( 46.0000000000000, 0.000000000000000, -33.0000000000000 ) );
#323 = AXIS2_PLACEMENT_3D( '', #360, #361, #362 );
#324 = CARTESIAN_POINT( '', ( 1.02441147333854E-14, -46.0000000000000, 20.0000000000000 ) );
#325 = CARTESIAN_POINT( '', ( 6.28198941400531E-15, 46.0000000000000, 20.0000000000000 ) );
#326 = AXIS2_PLACEMENT_3D( '', #363, #364, #365 );
#327 = AXIS2_PLACEMENT_3D( '', #366, #367, #368 );
#328 = COLOUR_RGB( '', 0.713725507300000, 0.709803938900000, 0.650980413000000 );
#329 = CARTESIAN_POINT( '', ( 38.6551707048646, 0.000000000000000, 9.62910054259728 ) );
#330 = AXIS2_PLACEMENT_3D( '', #369, #370, #371 );
#331 = CARTESIAN_POINT( '', ( -3.45201210266219E-14, -34.6666666666667, 20.0000000000000 ) );
#332 = CARTESIAN_POINT( '', ( -2.77119884924003E-14, 34.6666666666667, 20.0000000000000 ) );
#333 = AXIS2_PLACEMENT_3D( '', #372, #373, #374 );
#334 = AXIS2_PLACEMENT_3D( '', #375, #376, #377 );
#335 = COLOUR_RGB( '', 0.713725507300000, 0.709803938900000, 0.650980413000000 );
#336 = AXIS2_PLACEMENT_3D( '', #378, #379, #380 );
#337 = COLOUR_RGB( '', 0.713725507300000, 0.709803938900000, 0.650980413000000 );
#338 = AXIS2_PLACEMENT_3D( '', #381, #382, #383 );
#339 = CARTESIAN_POINT( '', ( 34.6666666666667, 0.000000000000000, 0.000000000000000 ) );
#340 = AXIS2_PLACEMENT_3D( '', #384, #385, #386 );
#341 = COLOUR_RGB( '', 0.713725507300000, 0.709803938900000, 0.650980413000000 );
#342 = CARTESIAN_POINT( '', ( 37.5000000000000, 0.000000000000000, 0.000000000000000 ) );
#343 = AXIS2_PLACEMENT_3D( '', #387, #388, #389 );
#344 = COLOUR_RGB( '', 0.713725507300000, 0.709803938900000, 0.650980413000000 );
#345 = CARTESIAN_POINT( '', ( 37.5000000000000, 0.000000000000000, -33.0000000000000 ) );
#346 = AXIS2_PLACEMENT_3D( '', #390, #391, #392 );
#347 = COLOUR_RGB( '', 0.713725507300000, 0.709803938900000, 0.650980413000000 );
#348 = CARTESIAN_POINT( '', ( 40.6586399182265, 0.000000000000000, 7.62563132923540 ) );
#349 = AXIS2_PLACEMENT_3D( '', #393, #394, #395 );
#350 = COLOUR_RGB( '', 0.713725507300000, 0.709803938900000, 0.650980413000000 );
#351 = COLOUR_RGB( '', 0.713725507300000, 0.709803938900000, 0.650980413000000 );
#352 = COLOUR_RGB( '', 0.713725507300000, 0.709803938900000, 0.650980413000000 );
#353 = COLOUR_RGB( '', 0.713725507300000, 0.709803938900000, 0.650980413000000 );
#354 = CARTESIAN_POINT( '', ( 37.4766594028870, 0.000000000000000, 57.4766594028870 ) );
#355 = DIRECTION( '', ( -0.707106781186548, 0.000000000000000, -0.707106781186548 ) );
#356 = DIRECTION( '', ( -0.707106781186548, 0.000000000000000, 0.707106781186548 ) );
#357 = CARTESIAN_POINT( '', ( 37.4766594028870, 0.000000000000000, 57.4766594028870 ) );
#358 = DIRECTION( '', ( 0.707106781186548, -0.000000000000000, 0.707106781186548 ) );
#359 = DIRECTION( '', ( 0.707106781186548, 0.000000000000000, -0.707106781186548 ) );
#360 = CARTESIAN_POINT( '', ( 0.000000000000000, 0.000000000000000, -33.0000000000000 ) );
#361 = DIRECTION( '', ( 0.000000000000000, 0.000000000000000, 1.00000000000000 ) );
#362 = DIRECTION( '', ( 1.00000000000000, 0.000000000000000, 0.000000000000000 ) );
#363 = CARTESIAN_POINT( '', ( -3.46944695195361E-15, 0.000000000000000, 20.0000000000000 ) );
#364 = DIRECTION( '', ( -0.382683432365090, 0.000000000000000, -0.923879532511287 ) );
#365 = DIRECTION( '', ( 0.923879532511287, 0.000000000000000, -0.382683432365090 ) );
#366 = CARTESIAN_POINT( '', ( 0.000000000000000, 0.000000000000000, 20.0000000000000 ) );
#367 = DIRECTION( '', ( 0.000000000000000, 0.000000000000000, 1.00000000000000 ) );
#368 = DIRECTION( '', ( 1.00000000000000, 0.000000000000000, 0.000000000000000 ) );
#369 = CARTESIAN_POINT( '', ( 14.1421356237309, 0.000000000000000, 34.1421356237309 ) );
#370 = DIRECTION( '', ( 0.707106781186548, -0.000000000000000, 0.707106781186547 ) );
#371 = DIRECTION( '', ( 0.707106781186547, 0.000000000000000, -0.707106781186548 ) );
#372 = CARTESIAN_POINT( '', ( -6.93889390390723E-15, 0.000000000000000, 20.0000000000000 ) );
#373 = DIRECTION( '', ( 0.382683432365090, 0.000000000000000, 0.923879532511287 ) );
#374 = DIRECTION( '', ( -0.923879532511287, 0.000000000000000, 0.382683432365090 ) );
#375 = CARTESIAN_POINT( '', ( -1.73472347597681E-14, 0.000000000000000, 20.0000000000000 ) );
#376 = DIRECTION( '', ( 0.707106781186548, -0.000000000000000, 0.707106781186547 ) );
#377 = DIRECTION( '', ( 0.707106781186547, 0.000000000000000, -0.707106781186548 ) );
#378 = CARTESIAN_POINT( '', ( 1.73472347597681E-15, 0.000000000000000, 20.0000000000000 ) );
#379 = DIRECTION( '', ( 0.707106781186548, -0.000000000000000, 0.707106781186548 ) );
#380 = DIRECTION( '', ( 0.707106781186548, 0.000000000000000, -0.707106781186548 ) );
#381 = CARTESIAN_POINT( '', ( 0.000000000000000, 0.000000000000000, 20.0000000000000 ) );
#382 = DIRECTION( '', ( 0.000000000000000, -0.000000000000000, 1.00000000000000 ) );
#383 = DIRECTION( '', ( 1.00000000000000, 0.000000000000000, 0.000000000000000 ) );
#384 = CARTESIAN_POINT( '', ( 0.000000000000000, 0.000000000000000, 0.000000000000000 ) );
#385 = DIRECTION( '', ( 0.000000000000000, -0.000000000000000, 1.00000000000000 ) );
#386 = DIRECTION( '', ( 1.00000000000000, 0.000000000000000, 0.000000000000000 ) );
#387 = CARTESIAN_POINT( '', ( 0.000000000000000, 0.000000000000000, 0.000000000000000 ) );
#388 = DIRECTION( '', ( 0.000000000000000, -0.000000000000000, 1.00000000000000 ) );
#389 = DIRECTION( '', ( 1.00000000000000, 0.000000000000000, 0.000000000000000 ) );
#390 = CARTESIAN_POINT( '', ( 0.000000000000000, 0.000000000000000, -33.0000000000000 ) );
#391 = DIRECTION( '', ( 0.000000000000000, 0.000000000000000, 1.00000000000000 ) );
#392 = DIRECTION( '', ( 1.00000000000000, 0.000000000000000, -0.000000000000000 ) );
#393 = CARTESIAN_POINT( '', ( 14.1421356237309, 0.000000000000000, 34.1421356237309 ) );
#394 = DIRECTION( '', ( 0.707106781186548, -0.000000000000000, 0.707106781186547 ) );
#395 = DIRECTION( '', ( 0.707106781186547, 0.000000000000000, -0.707106781186548 ) );
ENDSEC;
END-ISO-10303-21;
